  0
SECTION
  2
HEADER
  9
$ACADVER
  1
AC1015
  9
$ACADMAINTVER
 70
     6
  9
$DWGCODEPAGE
  3
ANSI_1254
  9
$INSBASE
 10
0.0
 20
0.0
 30
0.0
  9
$EXTMIN
 10
0.0
 20
0.0
 30
0.0
  9
$EXTMAX
 10
279.4
 20
215.9
 30
0.0
  9
$LIMMIN
 10
0.0
 20
0.0
  9
$LIMMAX
 10
279.4
 20
215.9
  9
$ORTHOMODE
 70
     0
  9
$REGENMODE
 70
     1
  9
$FILLMODE
 70
     1
  9
$QTEXTMODE
 70
     0
  9
$MIRRTEXT
 70
     1
  9
$LTSCALE
 40
1.0
  9
$ATTMODE
 70
     1
  9
$TEXTSIZE
 40
3.5
  9
$TRACEWID
 40
1.0
  9
$TEXTSTYLE
  7
Standard
  9
$CLAYER
  8
0
  9
$CELTYPE
  6
ByLayer
  9
$CECOLOR
 62
   256
  9
$CELTSCALE
 40
1.0
  9
$DISPSILH
 70
     0
  9
$DIMSCALE
 40
1.0
  9
$DIMASZ
 40
3.5
  9
$DIMEXO
 40
1.0
  9
$DIMDLI
 40
3.75
  9
$DIMRND
 40
0.0
  9
$DIMDLE
 40
0.0
  9
$DIMEXE
 40
1.0
  9
$DIMTP
 40
0.0
  9
$DIMTM
 40
0.0
  9
$DIMTXT
 40
3.5
  9
$DIMCEN
 40
2.5
  9
$DIMTSZ
 40
0.0
  9
$DIMTOL
 70
     0
  9
$DIMLIM
 70
     0
  9
$DIMTIH
 70
     1
  9
$DIMTOH
 70
     1
  9
$DIMSE1
 70
     0
  9
$DIMSE2
 70
     0
  9
$DIMTAD
 70
     1
  9
$DIMZIN
 70
     0
  9
$DIMBLK
  1

  9
$DIMASO
 70
     1
  9
$DIMSHO
 70
     1
  9
$DIMPOST
  1

  9
$DIMAPOST
  1

  9
$DIMALT
 70
     0
  9
$DIMALTD
 70
     3
  9
$DIMALTF
 40
0.0393700787
  9
$DIMLFAC
 40
1.0
  9
$DIMTOFL
 70
     1
  9
$DIMTVP
 40
0.0
  9
$DIMTIX
 70
     0
  9
$DIMSOXD
 70
     0
  9
$DIMSAH
 70
     0
  9
$DIMBLK1
  1

  9
$DIMBLK2
  1

  9
$DIMSTYLE
  2
ISO-25
  9
$DIMCLRD
 70
     0
  9
$DIMCLRE
 70
     0
  9
$DIMCLRT
 70
     0
  9
$DIMTFAC
 40
1.0
  9
$DIMGAP
 40
1.524
  9
$DIMJUST
 70
     0
  9
$DIMSD1
 70
     0
  9
$DIMSD2
 70
     0
  9
$DIMTOLJ
 70
     0
  9
$DIMTZIN
 70
     0
  9
$DIMALTZ
 70
     0
  9
$DIMALTTZ
 70
     0
  9
$DIMUPT
 70
     0
  9
$DIMDEC
 70
     2
  9
$DIMTDEC
 70
     2
  9
$DIMALTU
 70
     2
  9
$DIMALTTD
 70
     3
  9
$DIMTXSTY
  7
Standard
  9
$DIMAUNIT
 70
     0
  9
$DIMADEC
 70
     2
  9
$DIMALTRND
 40
0.0
  9
$DIMAZIN
 70
     0
  9
$DIMDSEP
 70
    44
  9
$DIMATFIT
 70
     3
  9
$DIMFRAC
 70
     0
  9
$DIMLDRBLK
  1

  9
$DIMLUNIT
 70
     2
  9
$DIMLWD
 70
    -2
  9
$DIMLWE
 70
    -2
  9
$DIMTMOVE
 70
     0
  9
$LUNITS
 70
     2
  9
$LUPREC
 70
     2
  9
$SKETCHINC
 40
1.0
  9
$FILLETRAD
 40
10.0
  9
$AUNITS
 70
     0
  9
$AUPREC
 70
     2
  9
$MENU
  1
.
  9
$ELEVATION
 40
0.0
  9
$PELEVATION
 40
0.0
  9
$THICKNESS
 40
0.0
  9
$LIMCHECK
 70
     0
  9
$CHAMFERA
 40
0.0
  9
$CHAMFERB
 40
0.0
  9
$CHAMFERC
 40
0.0
  9
$CHAMFERD
 40
0.0
  9
$SKPOLY
 70
     0
  9
$TDCREATE
 40
2458985.683606748
  9
$TDUCREATE
 40
2458985.558606748
  9
$TDUPDATE
 40
2458985.68360706
  9
$TDUUPDATE
 40
2458985.55860706
  9
$TDINDWG
 40
0.0000000116
  9
$TDUSRTIMER
 40
0.0000000116
  9
$USRTIMER
 70
     1
  9
$ANGBASE
 50
0.0
  9
$ANGDIR
 70
     0
  9
$PDMODE
 70
     0
  9
$PDSIZE
 40
-1.0
  9
$PLINEWID
 40
0.0
  9
$SPLFRAME
 70
     0
  9
$SPLINETYPE
 70
     6
  9
$SPLINESEGS
 70
     8
  9
$HANDSEED
  5
CB
  9
$SURFTAB1
 70
     6
  9
$SURFTAB2
 70
     6
  9
$SURFTYPE
 70
     6
  9
$SURFU
 70
     6
  9
$SURFV
 70
     6
  9
$UCSBASE
  2

  9
$UCSNAME
  2

  9
$UCSORG
 10
0.0
 20
0.0
 30
0.0
  9
$UCSXDIR
 10
1.0
 20
0.0
 30
0.0
  9
$UCSYDIR
 10
0.0
 20
1.0
 30
0.0
  9
$UCSORTHOREF
  2

  9
$UCSORTHOVIEW
 70
     0
  9
$UCSORGTOP
 10
0.0
 20
0.0
 30
0.0
  9
$UCSORGBOTTOM
 10
0.0
 20
0.0
 30
0.0
  9
$UCSORGLEFT
 10
0.0
 20
0.0
 30
0.0
  9
$UCSORGRIGHT
 10
0.0
 20
0.0
 30
0.0
  9
$UCSORGFRONT
 10
0.0
 20
0.0
 30
0.0
  9
$UCSORGBACK
 10
0.0
 20
0.0
 30
0.0
  9
$PUCSBASE
  2

  9
$PUCSNAME
  2

  9
$PUCSORG
 10
0.0
 20
0.0
 30
0.0
  9
$PUCSXDIR
 10
1.0
 20
0.0
 30
0.0
  9
$PUCSYDIR
 10
0.0
 20
1.0
 30
0.0
  9
$PUCSORTHOREF
  2

  9
$PUCSORTHOVIEW
 70
     0
  9
$PUCSORGTOP
 10
0.0
 20
0.0
 30
0.0
  9
$PUCSORGBOTTOM
 10
0.0
 20
0.0
 30
0.0
  9
$PUCSORGLEFT
 10
0.0
 20
0.0
 30
0.0
  9
$PUCSORGRIGHT
 10
0.0
 20
0.0
 30
0.0
  9
$PUCSORGFRONT
 10
0.0
 20
0.0
 30
0.0
  9
$PUCSORGBACK
 10
0.0
 20
0.0
 30
0.0
  9
$USERI1
 70
     0
  9
$USERI2
 70
     0
  9
$USERI3
 70
     0
  9
$USERI4
 70
     0
  9
$USERI5
 70
     0
  9
$USERR1
 40
0.0
  9
$USERR2
 40
0.0
  9
$USERR3
 40
0.0
  9
$USERR4
 40
0.0
  9
$USERR5
 40
0.0
  9
$WORLDVIEW
 70
     1
  9
$SHADEDGE
 70
     3
  9
$SHADEDIF
 70
    70
  9
$TILEMODE
 70
     1
  9
$MAXACTVP
 70
    64
  9
$PINSBASE
 10
0.0
 20
0.0
 30
0.0
  9
$PLIMCHECK
 70
     0
  9
$PEXTMIN
 10
1.0000000000E+20
 20
1.0000000000E+20
 30
1.0000000000E+20
  9
$PEXTMAX
 10
-1.0000000000E+20
 20
-1.0000000000E+20
 30
-1.0000000000E+20
  9
$PLIMMIN
 10
0.0
 20
0.0
  9
$PLIMMAX
 10
420.0
 20
297.0
  9
$UNITMODE
 70
     0
  9
$VISRETAIN
 70
     1
  9
$PLINEGEN
 70
     0
  9
$PSLTSCALE
 70
     1
  9
$TREEDEPTH
 70
  3020
  9
$CMLSTYLE
  2
Standard
  9
$CMLJUST
 70
     0
  9
$CMLSCALE
 40
20.0
  9
$PROXYGRAPHICS
 70
     1
  9
$MEASUREMENT
 70
     1
  9
$CELWEIGHT
370
    -1
  9
$ENDCAPS
280
     0
  9
$JOINSTYLE
280
     0
  9
$LWDISPLAY
290
     1
  9
$INSUNITS
 70
     4
  9
$HYPERLINKBASE
  1

  9
$STYLESHEET
  1

  9
$XEDIT
290
     1
  9
$CEPSNTYPE
380
     0
  9
$PSTYLEMODE
290
     1
  9
$FINGERPRINTGUID
  2
{d1dd2efb-4567-4e9f-afd1-a1536801af9b}
  9
$VERSIONGUID
  2
{FAEB1C32-E019-11D5-929B-00C0DF256EC4}
  9
$EXTNAMES
290
     1
  9
$PSVPSCALE
 40
0.0
  9
$OLESTARTUP
290
     0
  0
ENDSEC
  0
SECTION
  2
CLASSES
  0
CLASS
  1
ACDBDICTIONARYWDFLT
  2
AcDbDictionaryWithDefault
  3
ObjectDBX Classes
 90
        0
280
     0
281
     0
  0
CLASS
  1
VISUALSTYLE
  2
AcDbVisualStyle
  3
ObjectDBX Classes
 90
     4095
280
     0
281
     0
  0
CLASS
  1
MATERIAL
  2
AcDbMaterial
  3
ObjectDBX Classes
 90
     1153
280
     0
281
     0
  0
CLASS
  1
SCALE
  2
AcDbScale
  3
ObjectDBX Classes
 90
     1153
280
     0
281
     0
  0
CLASS
  1
TABLESTYLE
  2
AcDbTableStyle
  3
ObjectDBX Classes
 90
     4095
280
     0
281
     0
  0
CLASS
  1
MLEADERSTYLE
  2
AcDbMLeaderStyle
  3
ACDB_MLEADERSTYLE_CLASS
 90
     4095
280
     0
281
     0
  0
CLASS
  1
SUN
  2
AcDbSun
  3
SCENEOE
 90
     1153
280
     0
281
     0
  0
CLASS
  1
ACDBPLACEHOLDER
  2
AcDbPlaceHolder
  3
ObjectDBX Classes
 90
        0
280
     0
281
     0
  0
CLASS
  1
LAYOUT
  2
AcDbLayout
  3
ObjectDBX Classes
 90
        0
280
     0
281
     0
  0
ENDSEC
  0
SECTION
  2
TABLES
  0
TABLE
  2
VPORT
  5
8
330
0
100
AcDbSymbolTable
 70
     1
  0
VPORT
  5
29
330
8
100
AcDbSymbolTableRecord
100
AcDbViewportTableRecord
  2
*Active
 70
     0
 10
0.0
 20
0.0
 11
1.0
 21
1.0
 12
139.7
 22
107.95
 13
0.0
 23
0.0
 14
10.0
 24
10.0
 15
10.0
 25
10.0
 16
0.0
 26
0.0
 36
1.0
 17
0.0
 27
0.0
 37
0.0
 40
215.9
 41
1.2941176471
 42
50.0
 43
0.0
 44
0.0
 50
0.0
 51
0.0
 71
     0
 72
  2000
 73
     1
 74
     3
 75
     0
 76
     0
 77
     0
 78
     0
281
     0
 65
     1
110
0.0
120
0.0
130
0.0
111
1.0
121
0.0
131
0.0
112
0.0
122
1.0
132
0.0
 79
     0
146
0.0
  0
ENDTAB
  0
TABLE
  2
LTYPE
  5
5
330
0
100
AcDbSymbolTable
 70
     6
  0
LTYPE
  5
14
330
5
100
AcDbSymbolTableRecord
100
AcDbLinetypeTableRecord
  2
ByBlock
 70
     0
  3

 72
    65
 73
     0
 40
0.0
  0
LTYPE
  5
15
330
5
100
AcDbSymbolTableRecord
100
AcDbLinetypeTableRecord
  2
ByLayer
 70
     0
  3

 72
    65
 73
     0
 40
0.0
  0
LTYPE
  5
16
330
5
100
AcDbSymbolTableRecord
100
AcDbLinetypeTableRecord
  2
Continuous
 70
     0
  3
Solid line
 72
    65
 73
     0
 40
0.0
  0
LTYPE
  5
6E
330
5
100
AcDbSymbolTableRecord
100
AcDbLinetypeTableRecord
  2
HIDDEN
 70
     0
  3
Hidden __ __ __ __ __ __ __ __ __ __ __ __ __ __
 72
    65
 73
     2
 40
1.905
 49
1.27
 74
     0
 49
-0.635
 74
     0
  0
LTYPE
  5
6F
330
5
100
AcDbSymbolTableRecord
100
AcDbLinetypeTableRecord
  2
PHANTOM
 70
     0
  3
Phantom ______  __  __  ______  __  __  ______
 72
    65
 73
     6
 40
12.7
 49
6.35
 74
     0
 49
-1.27
 74
     0
 49
1.27
 74
     0
 49
-1.27
 74
     0
 49
1.27
 74
     0
 49
-1.27
 74
     0
  0
LTYPE
  5
70
330
5
100
AcDbSymbolTableRecord
100
AcDbLinetypeTableRecord
  2
CENTER
 70
     0
  3
Center ____ _ ____ _ ____ _ ____ _ ____ _ ____
 72
    65
 73
     4
 40
10.16
 49
6.35
 74
     0
 49
-1.27
 74
     0
 49
1.27
 74
     0
 49
-1.27
 74
     0
  0
LTYPE
  5
71
330
5
100
AcDbSymbolTableRecord
100
AcDbLinetypeTableRecord
  2
CENTERX2
 70
     0
  3
Center (2x) ________  __  ________  __  _____
 72
    65
 73
     4
 40
20.32
 49
12.7
 74
     0
 49
-2.54
 74
     0
 49
2.54
 74
     0
 49
-2.54
 74
     0
  0
LTYPE
  5
72
330
5
100
AcDbSymbolTableRecord
100
AcDbLinetypeTableRecord
  2
DOT2
 70
     0
  3
Dot (.5x) ........................................
 72
    65
 73
     2
 40
0.635
 49
0.0
 74
     0
 49
-0.635
 74
     0
  0
ENDTAB
  0
TABLE
  2
LAYER
  5
2
330
0
100
AcDbSymbolTable
 70
    17
  0
LAYER
  5
10
330
2
100
AcDbSymbolTableRecord
100
AcDbLayerTableRecord
  2
0
 70
     0
 62
     7
  6
Continuous
370
    -3
390
F
  0
LAYER
  5
73
330
2
100
AcDbSymbolTableRecord
100
AcDbLayerTableRecord
  2
FORMAT
 70
     0
 62
     7
  6
Continuous
370
    -3
390
F
  0
LAYER
  5
74
330
2
100
AcDbSymbolTableRecord
100
AcDbLayerTableRecord
  2
YARDIMCI_GEOMETRI
 70
     0
 62
    -6
  6
Continuous
290
     0
370
    -3
390
F
  0
LAYER
  5
75
330
2
100
AcDbSymbolTableRecord
100
AcDbLayerTableRecord
  2
SAYFA_CERCEVESI
 70
     0
 62
     7
  6
Continuous
370
    25
390
F
  0
LAYER
  5
76
330
2
100
AcDbSymbolTableRecord
100
AcDbLayerTableRecord
  2
ANTET
 70
     0
 62
     7
  6
Continuous
370
    -3
390
F
  0
LAYER
  5
77
330
2
100
AcDbSymbolTableRecord
100
AcDbLayerTableRecord
  2
OLCU
 70
     0
 62
   150
  6
Continuous
370
    -3
390
F
  0
LAYER
  5
78
330
2
100
AcDbSymbolTableRecord
100
AcDbLayerTableRecord
  2
METIN
 70
     0
 62
    96
  6
Continuous
370
    -3
390
F
  0
LAYER
  5
79
330
2
100
AcDbSymbolTableRecord
100
AcDbLayerTableRecord
  2
BALON
 70
     0
 62
     5
  6
Continuous
370
    -3
390
F
  0
LAYER
  5
7A
330
2
100
AcDbSymbolTableRecord
100
AcDbLayerTableRecord
  2
VURGU
 70
     0
 62
     7
  6
Continuous
370
    -3
390
F
  0
LAYER
  5
7B
330
2
100
AcDbSymbolTableRecord
100
AcDbLayerTableRecord
  2
SILIK
 70
     0
 62
     7
  6
Continuous
370
    -3
390
F
  0
LAYER
  5
7C
330
2
100
AcDbSymbolTableRecord
100
AcDbLayerTableRecord
  2
MODEL
 70
     0
 62
     7
  6
Continuous
370
    -3
390
F
  0
LAYER
  5
7D
330
2
100
AcDbSymbolTableRecord
100
AcDbLayerTableRecord
  2
DETAYLANDıRMA
 70
     0
 62
   190
  6
Continuous
370
    -3
390
F
  0
LAYER
  5
7E
330
2
100
AcDbSymbolTableRecord
100
AcDbLayerTableRecord
  2
TOLERANS
 70
     0
 62
   230
  6
Continuous
370
    -3
390
F
  0
LAYER
  5
7F
330
2
100
AcDbSymbolTableRecord
100
AcDbLayerTableRecord
  2
MERKEZ_CIZGILERI
 70
     0
 62
    30
  6
Continuous
370
    -3
390
F
  0
LAYER
  5
80
330
2
100
AcDbSymbolTableRecord
100
AcDbLayerTableRecord
  2
KESIT-DETAY_CIZGILERI
 70
     0
 62
     7
  6
Continuous
370
    -3
390
F
  0
LAYER
  5
81
330
2
100
AcDbSymbolTableRecord
100
AcDbLayerTableRecord
  2
\U+041E\U+0421\U+0415\U+0412\U+042B\U+0415
 70
     0
 62
     7
  6
Continuous
370
    -3
390
F
  0
LAYER
  5
82
330
2
100
AcDbSymbolTableRecord
100
AcDbLayerTableRecord
  2
\U+0412\U+041E\U+0414\U+042F\U+041D\U+042B\U+0415_\U+0417\U+041D\U+0410\U+041A\U+0418
 70
     0
 62
    11
  6
Continuous
370
    -3
390
F
  0
ENDTAB
  0
TABLE
  2
STYLE
  5
3
330
0
100
AcDbSymbolTable
 70
     1
  0
STYLE
  5
11
330
3
100
AcDbSymbolTableRecord
100
AcDbTextStyleTableRecord
  2
Standard
 70
     0
 40
0.0
 41
1.0
 50
0.0
 71
     0
 42
3.5
  3
txt
  4

  0
ENDTAB
  0
TABLE
  2
VIEW
  5
6
330
0
100
AcDbSymbolTable
 70
     0
  0
ENDTAB
  0
TABLE
  2
UCS
  5
7
330
0
100
AcDbSymbolTable
 70
     0
  0
ENDTAB
  0
TABLE
  2
APPID
  5
9
330
0
100
AcDbSymbolTable
 70
     1
  0
APPID
  5
12
330
9
100
AcDbSymbolTableRecord
100
AcDbRegAppTableRecord
  2
ACAD
 70
     0
  0
ENDTAB
  0
TABLE
  2
DIMSTYLE
  5
A
330
0
100
AcDbSymbolTable
 70
     1
100
AcDbDimStyleTable
  0
DIMSTYLE
105
27
330
A
100
AcDbSymbolTableRecord
100
AcDbDimStyleTableRecord
  2
ISO-25
 70
     0
 41
2.5
 42
0.625
 43
3.75
 44
1.25
 73
     0
 74
     0
 77
     1
 78
     8
140
2.5
141
2.5
143
0.0393700787
147
0.625
171
     3
172
     1
178
     0
271
     2
272
     2
274
     3
278
    44
283
     0
284
     8
340
11
  0
ENDTAB
  0
TABLE
  2
BLOCK_RECORD
  5
1
330
0
100
AcDbSymbolTable
 70
     3
  0
BLOCK_RECORD
  5
1F
330
1
100
AcDbSymbolTableRecord
100
AcDbBlockTableRecord
  2
*Model_Space
340
22
  0
BLOCK_RECORD
  5
1B
330
1
100
AcDbSymbolTableRecord
100
AcDbBlockTableRecord
  2
*Paper_Space
340
1E
  0
BLOCK_RECORD
  5
23
330
1
100
AcDbSymbolTableRecord
100
AcDbBlockTableRecord
  2
*Paper_Space0
340
26
  0
BLOCK_RECORD
  5
88
330
1
100
AcDbSymbolTableRecord
100
AcDbBlockTableRecord
  2
SW_CENTERMARKSYMBOL_0
340
0
102
{BLKREFS
331
93
102
}
  0
BLOCK_RECORD
  5
B2
330
1
100
AcDbSymbolTableRecord
100
AcDbBlockTableRecord
  2
SW_CENTERMARKSYMBOL_1
340
0
102
{BLKREFS
331
BD
102
}
  0
ENDTAB
  0
ENDSEC
  0
SECTION
  2
BLOCKS
  0
BLOCK
  5
20
330
1F
100
AcDbEntity
  8
0
100
AcDbBlockBegin
  2
*Model_Space
 70
     0
 10
0.0
 20
0.0
 30
0.0
  3
*Model_Space
  1

  0
ENDBLK
  5
21
330
1F
100
AcDbEntity
  8
0
100
AcDbBlockEnd
  0
BLOCK
  5
1C
330
1B
100
AcDbEntity
 67
     1
  8
0
100
AcDbBlockBegin
  2
*Paper_Space
 70
     0
 10
0.0
 20
0.0
 30
0.0
  3
*Paper_Space
  1

  0
ENDBLK
  5
1D
330
1B
100
AcDbEntity
 67
     1
  8
0
100
AcDbBlockEnd
  0
BLOCK
  5
24
330
23
100
AcDbEntity
  8
0
100
AcDbBlockBegin
  2
*Paper_Space0
 70
     0
 10
0.0
 20
0.0
 30
0.0
  3
*Paper_Space0
  1

  0
ENDBLK
  5
25
330
23
100
AcDbEntity
  8
0
100
AcDbBlockEnd
  0
BLOCK
  5
89
330
88
100
AcDbEntity
  8
0
100
AcDbBlockBegin
  2
SW_CENTERMARKSYMBOL_0
 70
     0
 10
0.0
 20
0.0
 30
0.0
  3
SW_CENTERMARKSYMBOL_0
  1

  0
LINE
  5
8B
330
88
100
AcDbEntity
  8
FORMAT
 62
     0
100
AcDbLine
 10
0.0
 20
0.0
 30
0.0
 11
0.0
 21
2.5
 31
0.0
  0
LINE
  5
8C
330
88
100
AcDbEntity
  8
FORMAT
 62
     0
100
AcDbLine
 10
0.0
 20
0.0
 30
0.0
 11
-2.5
 21
0.0
 31
0.0
  0
LINE
  5
8D
330
88
100
AcDbEntity
  8
FORMAT
 62
     0
100
AcDbLine
 10
0.0
 20
0.0
 30
0.0
 11
0.0
 21
-2.5
 31
0.0
  0
LINE
  5
8E
330
88
100
AcDbEntity
  8
FORMAT
 62
     0
100
AcDbLine
 10
0.0
 20
0.0
 30
0.0
 11
2.5
 21
0.0
 31
0.0
  0
LINE
  5
8F
330
88
100
AcDbEntity
  8
FORMAT
 62
     0
100
AcDbLine
 10
0.0
 20
5.0
 30
0.0
 11
0.0
 21
160.0
 31
0.0
  0
LINE
  5
90
330
88
100
AcDbEntity
  8
FORMAT
 62
     0
100
AcDbLine
 10
-5.0
 20
0.0
 30
0.0
 11
-160.0
 21
0.0
 31
0.0
  0
LINE
  5
91
330
88
100
AcDbEntity
  8
FORMAT
 62
     0
100
AcDbLine
 10
0.0
 20
-5.0
 30
0.0
 11
0.0
 21
-160.0
 31
0.0
  0
LINE
  5
92
330
88
100
AcDbEntity
  8
FORMAT
 62
     0
100
AcDbLine
 10
5.0
 20
0.0
 30
0.0
 11
160.0
 21
0.0
 31
0.0
  0
ENDBLK
  5
8A
330
88
100
AcDbEntity
  8
0
100
AcDbBlockEnd
  0
BLOCK
  5
B3
330
B2
100
AcDbEntity
  8
0
100
AcDbBlockBegin
  2
SW_CENTERMARKSYMBOL_1
 70
     0
 10
0.0
 20
0.0
 30
0.0
  3
SW_CENTERMARKSYMBOL_1
  1

  0
LINE
  5
B5
330
B2
100
AcDbEntity
  8
FORMAT
 62
     0
100
AcDbLine
 10
0.0
 20
0.0
 30
0.0
 11
0.0
 21
2.5
 31
0.0
  0
LINE
  5
B6
330
B2
100
AcDbEntity
  8
FORMAT
 62
     0
100
AcDbLine
 10
0.0
 20
0.0
 30
0.0
 11
-2.5
 21
0.0
 31
0.0
  0
LINE
  5
B7
330
B2
100
AcDbEntity
  8
FORMAT
 62
     0
100
AcDbLine
 10
0.0
 20
0.0
 30
0.0
 11
0.0
 21
-2.5
 31
0.0
  0
LINE
  5
B8
330
B2
100
AcDbEntity
  8
FORMAT
 62
     0
100
AcDbLine
 10
0.0
 20
0.0
 30
0.0
 11
2.5
 21
0.0
 31
0.0
  0
LINE
  5
B9
330
B2
100
AcDbEntity
  8
FORMAT
 62
     0
100
AcDbLine
 10
0.0
 20
5.0
 30
0.0
 11
0.0
 21
102.5
 31
0.0
  0
LINE
  5
BA
330
B2
100
AcDbEntity
  8
FORMAT
 62
     0
100
AcDbLine
 10
-5.0
 20
0.0
 30
0.0
 11
-102.5
 21
0.0
 31
0.0
  0
LINE
  5
BB
330
B2
100
AcDbEntity
  8
FORMAT
 62
     0
100
AcDbLine
 10
0.0
 20
-5.0
 30
0.0
 11
0.0
 21
-102.5
 31
0.0
  0
LINE
  5
BC
330
B2
100
AcDbEntity
  8
FORMAT
 62
     0
100
AcDbLine
 10
5.0
 20
0.0
 30
0.0
 11
102.5
 21
0.0
 31
0.0
  0
ENDBLK
  5
B4
330
B2
100
AcDbEntity
  8
0
100
AcDbBlockEnd
  0
ENDSEC
  0
SECTION
  2
ENTITIES
  0
LINE
  5
83
330
1F
100
AcDbEntity
  8
0
  6
Continuous
 62
     7
370
    25
100
AcDbLine
 10
170.7598132248
 20
6.2158313285
 30
0.0
 11
365.9926032189
 21
6.2158313285
 31
0.0
  0
LINE
  5
84
330
1F
100
AcDbEntity
  8
0
  6
Continuous
 62
     7
370
    25
100
AcDbLine
 10
365.9926032189
 20
206.2158313285
 30
0.0
 11
170.752270387
 21
206.2158313285
 31
0.0
  0
CIRCLE
  5
85
330
1F
100
AcDbEntity
  8
0
  6
Continuous
 62
     7
370
    25
100
AcDbCircle
 10
48.9926032189
 20
106.2158313285
 30
0.0
 40
128.9
  0
CIRCLE
  5
86
330
1F
100
AcDbEntity
  8
0
  6
Continuous
 62
     7
370
    25
100
AcDbCircle
 10
48.9926032189
 20
106.2158313285
 30
0.0
 40
157.5
  0
LINE
  5
87
330
1F
100
AcDbEntity
  8
0
  6
Continuous
 62
     7
370
    25
100
AcDbLine
 10
365.9926032189
 20
206.2158313285
 30
0.0
 11
365.9926032189
 21
6.2158313285
 31
0.0
  0
INSERT
  5
93
330
1F
100
AcDbEntity
  8
FORMAT
100
AcDbBlockReference
  2
SW_CENTERMARKSYMBOL_0
 10
48.9926032189
 20
106.2158313285
 30
0.0
  0
LINE
  5
94
330
1F
100
AcDbEntity
  8
0
  6
Continuous
 62
     7
370
    25
100
AcDbLine
 10
-108.5073967811
 20
-192.5747428918
 30
0.0
 11
-108.5073967811
 21
-904.5747428918
 31
0.0
  0
LINE
  5
95
330
1F
100
AcDbEntity
  8
0
  6
Continuous
 62
     7
370
    25
100
AcDbLine
 10
206.4926032189
 20
-448.639264334
 30
0.0
 11
206.4926032189
 21
-192.5747428918
 31
0.0
  0
LINE
  5
96
330
1F
100
AcDbEntity
  8
0
  6
Continuous
 62
     7
370
    25
100
AcDbLine
 10
206.4926032189
 20
-904.5747428918
 30
0.0
 11
206.4926032189
 21
-648.5747428918
 31
0.0
  0
LINE
  5
97
330
1F
100
AcDbEntity
  8
0
  6
Continuous
 62
     7
370
    25
100
AcDbLine
 10
206.4926032189
 20
-648.5747428918
 30
0.0
 11
365.9926032189
 21
-648.5747428918
 31
0.0
  0
LINE
  5
98
330
1F
100
AcDbEntity
  8
0
  6
Continuous
 62
     7
370
    25
100
AcDbLine
 10
365.9926032189
 20
-448.5747428918
 30
0.0
 11
206.4515967903
 21
-448.5747428918
 31
0.0
  0
SPLINE
  5
99
330
1F
100
AcDbEntity
  8
0
  6
Continuous
 62
     7
370
    25
100
AcDbSpline
210
0.0
220
0.0
230
1.0
 70
     8
 71
     3
 72
    48
 73
    44
 74
     0
 42
0.000000001
 43
0.00000001
 40
0.0
 40
0.0
 40
0.0
 40
0.0
 40
0.0085440067976344
 40
0.0321622741730049
 40
0.0557813839871997
 40
0.0775883424814403
 40
0.0993965270000749
 40
0.1217530937778034
 40
0.1441112057949276
 40
0.1676298541084936
 40
0.1911501284312778
 40
0.2151868931192825
 40
0.2392247572282818
 40
0.2662647313233035
 40
0.2933048427636551
 40
0.3210397386449499
 40
0.3487722212103458
 40
0.371898024341012
 40
0.3950212905549103
 40
0.4187601701632408
 40
0.4424954033909575
 40
0.4656668298527815
 40
0.4888360859072139
 40
0.5129112707411986
 40
0.5369874901495896
 40
0.5571520942060405
 40
0.5773184481566599
 40
0.5979743353128845
 40
0.6186322398189122
 40
0.6457262370665463
 40
0.6728241230135856
 40
0.700697398260377
 40
0.7285720098488327
 40
0.7559972632894235
 40
0.7834215648330558
 40
0.8116027984171788
 40
0.8397811768891604
 40
0.8676616695905213
 40
0.8955384844650222
 40
0.9245364653172273
 40
0.9535307003575791
 40
0.9766742485349891
 40
1.0
 40
1.0
 40
1.0
 40
1.0
 10
206.4515945953411
 20
-448.6392643339962
 30
0.0
 10
206.4622929407788
 20
-448.6224487246096
 30
0.0
 10
206.5025648093898
 20
-448.5591495896383
 30
0.0
 10
206.1938562101718
 20
-449.0448193798723
 30
0.0
 10
205.5471920446823
 20
-450.068989149903
 30
0.0
 10
204.5758874711225
 20
-451.6181690731441
 30
0.0
 10
203.3521350422717
 20
-453.5926976240013
 30
0.0
 10
201.8546259950206
 20
-456.0430133317407
 30
0.0
 10
200.0802837994121
 20
-459.0012461394174
 30
0.0
 10
198.0568496493684
 20
-462.4525958537595
 30
0.0
 10
195.7970739867412
 20
-466.4207190114507
 30
0.0
 10
193.3690153678397
 20
-470.8350914410386
 30
0.0
 10
190.7093906864973
 20
-475.881193379041
 30
0.0
 10
187.8699250217256
 20
-481.5648052851475
 30
0.0
 10
184.8862600170236
 20
-487.9727439922526
 30
0.0
 10
181.940197582795
 20
-494.8791301864212
 30
0.0
 10
179.2760239229948
 20
-501.8653087330612
 30
0.0
 10
176.9663301616372
 20
-508.7739884875118
 30
0.0
 10
175.0081718392155
 20
-515.5776551206018
 30
0.0
 10
173.3290650852982
 20
-522.6916334271272
 30
0.0
 10
172.0057895930083
 20
-530.026095411871
 30
0.0
 10
171.1067177855725
 20
-537.4668411419838
 30
0.0
 10
170.6431316759764
 20
-545.0463338762145
 30
0.0
 10
170.6649443045532
 20
-552.7598570264231
 30
0.0
 10
171.1499750400387
 20
-560.1085479370971
 30
0.0
 10
171.9988104501409
 20
-566.9378260281726
 30
0.0
 10
173.1053260023404
 20
-573.283535061453
 30
0.0
 10
174.5001965930164
 20
-579.5232020807638
 30
0.0
 10
176.3174910420857
 20
-586.2613478150339
 30
0.0
 10
178.5859661059607
 20
-593.3481618975848
 30
0.0
 10
181.3246827437643
 20
-600.7300209392428
 30
0.0
 10
184.2569028488437
 20
-607.7605347787047
 30
0.0
 10
187.2849646761371
 20
-614.3689568535822
 30
0.0
 10
190.2982764799177
 20
-620.4740868161884
 30
0.0
 10
193.2540730994052
 20
-626.1117483562641
 30
0.0
 10
196.0923918193035
 20
-631.2649923235124
 30
0.0
 10
198.7313903218301
 20
-635.8639790059444
 30
0.0
 10
201.0747691750377
 20
-639.8195647064582
 30
0.0
 10
203.0946845528821
 20
-643.1420347041416
 30
0.0
 10
204.7165585543508
 20
-645.7594116255225
 30
0.0
 10
205.7854928475856
 20
-647.458668496312
 30
0.0
 10
206.3877810958519
 20
-648.4098326346235
 30
0.0
 10
206.4575712968597
 20
-648.5196293040436
 30
0.0
 10
206.4926032189228
 20
-648.5747428917733
 30
0.0
  0
LINE
  5
9A
330
1F
100
AcDbEntity
  8
0
  6
Continuous
 62
     7
370
    25
100
AcDbLine
 10
206.4926032189
 20
-904.5747428918
 30
0.0
 11
-108.5073967811
 21
-904.5747428918
 31
0.0
  0
LINE
  5
9B
330
1F
100
AcDbEntity
  8
0
  6
Continuous
 62
     7
370
    25
100
AcDbLine
 10
206.4926032189
 20
-192.5747428918
 30
0.0
 11
-108.5073967811
 21
-192.5747428918
 31
0.0
  0
LINE
  5
9C
330
1F
100
AcDbEntity
  8
0
  6
Continuous
 62
     7
370
    25
100
AcDbLine
 10
365.9926032189
 20
-448.5747428918
 30
0.0
 11
365.9926032189
 21
-648.5747428918
 31
0.0
  0
LINE
  5
9D
330
1F
100
AcDbEntity
  8
0
  6
Continuous
 62
     7
370
    25
100
AcDbLine
 10
206.4926032189
 20
872.4733005118
 30
0.0
 11
206.4926032189
 21
1128.4733005118
 31
0.0
  0
LINE
  5
9E
330
1F
100
AcDbEntity
  8
0
  6
Continuous
 62
     7
370
    25
100
AcDbLine
 10
206.4926032189
 20
416.4733005118
 30
0.0
 11
206.4926032189
 21
672.5379649247
 31
0.0
  0
LINE
  5
9F
330
1F
100
AcDbEntity
  8
0
  6
Continuous
 62
     7
370
    25
100
AcDbLine
 10
-108.5073967811
 20
1128.4733005118
 30
0.0
 11
-108.5073967811
 21
416.4733005118
 31
0.0
  0
LINE
  5
A0
330
1F
100
AcDbEntity
  8
0
  6
Continuous
 62
     7
370
    25
100
AcDbLine
 10
206.4515588224
 20
672.4733005118
 30
0.0
 11
365.9926032189
 21
672.4733005118
 31
0.0
  0
LINE
  5
A1
330
1F
100
AcDbEntity
  8
0
  6
Continuous
 62
     7
370
    25
100
AcDbLine
 10
365.9926032189
 20
872.4733005118
 30
0.0
 11
206.4926032189
 21
872.4733005118
 31
0.0
  0
SPLINE
  5
A2
330
1F
100
AcDbEntity
  8
0
  6
Continuous
 62
     7
370
    25
100
AcDbSpline
210
0.0
220
0.0
230
1.0
 70
     8
 71
     3
 72
    49
 73
    45
 74
     0
 42
0.000000001
 43
0.00000001
 40
0.0
 40
0.0
 40
0.0
 40
0.0
 40
0.0230288241444973
 40
0.0462383294340064
 40
0.0700059181149612
 40
0.093959003972799
 40
0.1169843768294936
 40
0.1401580399858558
 40
0.1637670120474337
 40
0.187513324082836
 40
0.2124638912771839
 40
0.2375551842098295
 40
0.2630668569919779
 40
0.2887174074763514
 40
0.3170245841877933
 40
0.345530795836714
 40
0.3747181033036268
 40
0.4041765600114536
 40
0.4249642815828447
 40
0.4458789646564524
 40
0.4672250514023819
 40
0.4887346752562178
 40
0.5095272151807079
 40
0.5304789925561533
 40
0.5519182914708994
 40
0.5735168124014153
 40
0.5938716485118956
 40
0.6143384873377757
 40
0.6351222845909256
 40
0.6560023630271274
 40
0.680265738276364
 40
0.7046577368067387
 40
0.7294320312209316
 40
0.7543330895817564
 40
0.7827100088485726
 40
0.811288325179102
 40
0.8405448557035768
 40
0.8700604836042186
 40
0.8928480573916748
 40
0.9157803574494779
 40
0.9391938284907143
 40
0.962785110978055
 40
0.9855768555823597
 40
1.0
 40
1.0
 40
1.0
 40
1.0
 10
206.4926032189228
 20
872.4733005117952
 30
0.0
 10
206.4584935687788
 20
872.4196223483701
 30
0.0
 10
206.3900066486332
 20
872.3118448696639
 30
0.0
 10
205.8342373742777
 20
871.4344182439338
 30
0.0
 10
204.9443037355459
 20
870.019518799752
 30
0.0
 10
203.7139932728945
 20
868.0425620721008
 30
0.0
 10
202.1969219614607
 20
865.5690418946618
 30
0.0
 10
200.4256591382149
 20
862.628135778633
 30
0.0
 10
198.4047694311368
 20
859.1954365095576
 30
0.0
 10
196.1329233021825
 20
855.2263944254041
 30
0.0
 10
193.6485947344744
 20
850.7325089405239
 30
0.0
 10
190.9806623978939
 20
845.6931360011541
 30
0.0
 10
188.2145496396136
 20
840.1851350457578
 30
0.0
 10
185.3141141078488
 20
834.0232831837355
 30
0.0
 10
182.3540727153608
 20
827.1884599083554
 30
0.0
 10
179.4124830263667
 20
819.6002969271327
 30
0.0
 10
176.6833350044095
 20
811.4623718930602
 30
0.0
 10
174.5339604222507
 20
803.6602453688232
 30
0.0
 10
172.9529994904047
 20
796.4166966742197
 30
0.0
 10
171.8468894306797
 20
789.8377127004641
 30
0.0
 10
171.0685456133079
 20
783.0555289311335
 30
0.0
 10
170.6663668054648
 20
776.2033660680604
 30
0.0
 10
170.6505383641352
 20
769.3651707491985
 30
0.0
 10
171.0136594151537
 20
762.558492888225
 30
0.0
 10
171.756460030808
 20
755.7418322034895
 30
0.0
 10
172.8406275971496
 20
749.1137560935797
 30
0.0
 10
174.2046084535028
 20
742.7455218261873
 30
0.0
 10
175.7964542196015
 20
736.6383188964033
 30
0.0
 10
177.6104119042526
 20
730.6808410992975
 30
0.0
 10
179.7134386960834
 20
724.5922707794524
 30
0.0
 10
182.0856349246329
 20
718.4503251425829
 30
0.0
 10
184.7036767316798
 20
712.2994749185422
 30
0.0
 10
187.4007917714395
 20
706.4511810978261
 30
0.0
 10
190.2433626255301
 20
700.6848367534093
 30
0.0
 10
193.1618374602384
 20
695.1052975526376
 30
0.0
 10
196.0870453325849
 20
689.791255973123
 30
0.0
 10
198.8209499978182
 20
685.0281555038836
 30
0.0
 10
201.0830310563125
 20
681.2177300670833
 30
0.0
 10
202.8741571853442
 20
678.2685882679515
 30
0.0
 10
204.2495610421703
 20
676.0405282057714
 30
0.0
 10
205.3388021560246
 20
674.2984241011304
 30
0.0
 10
206.0754621578801
 20
673.1307816468703
 30
0.0
 10
206.4614856915213
 20
672.5222898705465
 30
0.0
 10
206.4543299178219
 20
672.53358668727
 30
0.0
 10
206.4515565988573
 20
672.5379649246731
 30
0.0
  0
LINE
  5
A3
330
1F
100
AcDbEntity
  8
0
  6
Continuous
 62
     7
370
    25
100
AcDbLine
 10
-108.5073967811
 20
1128.4733005118
 30
0.0
 11
206.4926032189
 21
1128.4733005118
 31
0.0
  0
LINE
  5
A4
330
1F
100
AcDbEntity
  8
0
  6
Continuous
 62
     7
370
    25
100
AcDbLine
 10
-108.5073967811
 20
416.4733005118
 30
0.0
 11
206.4926032189
 21
416.4733005118
 31
0.0
  0
LINE
  5
A5
330
1F
100
AcDbEntity
  8
0
  6
Continuous
 62
     7
370
    25
100
AcDbLine
 10
365.9926032189
 20
872.4733005118
 30
0.0
 11
365.9926032189
 21
672.4733005118
 31
0.0
  0
LINE
  5
A6
330
1F
100
AcDbEntity
  8
0
  6
Continuous
 62
     7
370
    25
100
AcDbLine
 10
542.6184452608
 20
-51.2841686715
 30
0.0
 11
1254.6184452608
 21
-51.2841686715
 31
0.0
  0
LINE
  5
A7
330
1F
100
AcDbEntity
  8
0
  6
Continuous
 62
     7
370
    25
100
AcDbLine
 10
1254.6184452608
 20
263.7158313285
 30
0.0
 11
542.6184452608
 21
263.7158313285
 31
0.0
  0
LINE
  5
A8
330
1F
100
AcDbEntity
  8
0
  6
Continuous
 62
     7
370
    25
100
AcDbLine
 10
1254.6184452608
 20
263.7158313285
 30
0.0
 11
1254.6184452608
 21
-51.2841686715
 31
0.0
  0
LINE
  5
A9
330
1F
100
AcDbEntity
  8
0
  6
Continuous
 62
     7
370
    25
100
AcDbLine
 10
542.6184452608
 20
263.7158313285
 30
0.0
 11
542.6184452608
 21
-51.2841686715
 31
0.0
  0
LINE
  5
AA
330
1F
100
AcDbEntity
  8
0
  6
Continuous
 62
     7
370
    25
100
AcDbLine
 10
-298.7675203719
 20
263.7158313285
 30
0.0
 11
-1010.7675203719
 21
263.7158313285
 31
0.0
  0
LINE
  5
AB
330
1F
100
AcDbEntity
  8
0
  6
Continuous
 62
     7
370
    25
100
AcDbLine
 10
-1010.7675203719
 20
-51.2841686715
 30
0.0
 11
-298.7675203719
 21
-51.2841686715
 31
0.0
  0
CIRCLE
  5
AC
330
1F
100
AcDbEntity
  8
0
  6
Continuous
 62
     7
370
    25
100
AcDbCircle
 10
-654.7675203719
 20
106.2158313285
 30
0.0
 40
81.79999999999995
  0
CIRCLE
  5
AD
330
1F
100
AcDbEntity
  8
0
  6
Continuous
 62
     7
370
    25
100
AcDbCircle
 10
-654.7675203719
 20
106.2158313285
 30
0.0
 40
100.0
  0
LINE
  5
AE
330
1F
100
AcDbEntity
  8
0
  6
Continuous
 62
     7
370
    25
100
AcDbLine
 10
-1010.7675203719
 20
106.2158313285
 30
0.0
 11
-1010.7675203719
 21
263.7158313285
 31
0.0
  0
LINE
  5
AF
330
1F
100
AcDbEntity
  8
0
  6
Continuous
 62
     7
370
    25
100
AcDbLine
 10
-1010.7675203719
 20
-51.2841686715
 30
0.0
 11
-1010.7675203719
 21
106.2158313285
 31
0.0
  0
LINE
  5
B0
330
1F
100
AcDbEntity
  8
0
  6
Continuous
 62
     7
370
    25
100
AcDbLine
 10
-298.7675203719
 20
106.2158313285
 30
0.0
 11
-298.7675203719
 21
263.7158313285
 31
0.0
  0
LINE
  5
B1
330
1F
100
AcDbEntity
  8
0
  6
Continuous
 62
     7
370
    25
100
AcDbLine
 10
-298.7675203719
 20
-51.2841686715
 30
0.0
 11
-298.7675203719
 21
106.2158313285
 31
0.0
  0
INSERT
  5
BD
330
1F
100
AcDbEntity
  8
FORMAT
100
AcDbBlockReference
  2
SW_CENTERMARKSYMBOL_1
 10
-654.7675203719
 20
106.2158313285
 30
0.0
  0
LINE
  5
BE
330
1F
100
AcDbEntity
  8
0
  6
Continuous
 62
     7
370
    25
100
AcDbLine
 10
1201.0605842115
 20
-501.5027553049
 30
0.0
 11
1128.1078979609
 21
-459.3880659689
 31
0.0
  0
LINE
  5
BF
330
1F
100
AcDbEntity
  8
0
  6
Continuous
 62
     7
370
    25
100
AcDbLine
 10
928.0916431672
 20
-343.9211398591
 30
0.0
 11
697.6005560066
 21
-210.8614674961
 31
0.0
  0
LINE
  5
C0
330
1F
100
AcDbEntity
  8
0
  6
Continuous
 62
     7
370
    25
100
AcDbLine
 10
540.1133556165
 20
-483.666859146
 30
0.0
 11
1043.5733838213
 21
-774.3081469549
 31
0.0
  0
LINE
  5
C1
330
1F
100
AcDbEntity
  8
0
  6
Continuous
 62
     7
370
    25
100
AcDbLine
 10
1020.0937814064
 20
-521.7432881876
 30
0.0
 11
1144.7357561819
 21
-449.7890077396
 31
0.0
  0
LINE
  5
C2
330
1F
100
AcDbEntity
  8
0
  6
Continuous
 62
     7
370
    25
100
AcDbLine
 10
1044.7438829183
 20
-276.5792352635
 30
0.0
 11
920.1010983309
 21
-348.5339832059
 31
0.0
  0
SPLINE
  5
C3
330
1F
100
AcDbEntity
  8
0
  6
Continuous
 62
     7
370
    25
100
AcDbSpline
210
0.0
220
0.0
230
1.0
 70
     8
 71
     3
 72
    39
 73
    35
 74
     0
 42
0.000000001
 43
0.00000001
 40
0.0
 40
0.0
 40
0.0
 40
0.0
 40
0.0306727561626215
 40
0.0619569086553167
 40
0.0932425817272581
 40
0.1251463887670697
 40
0.1558145480597617
 40
0.1869688499123577
 40
0.2181255430019473
 40
0.2497539420141244
 40
0.2829863232624829
 40
0.3166855063405422
 40
0.3503858122254075
 40
0.3845505214397162
 40
0.4222536678736935
 40
0.4602219146908612
 40
0.4990973327043337
 40
0.5383339022250672
 40
0.5660216691268828
 40
0.5941670811275763
 40
0.6223097670005326
 40
0.6509590564075242
 40
0.6786532410130307
 40
0.7068830888680552
 40
0.7351147916506204
 40
0.7638824856422083
 40
0.7909936798929174
 40
0.8184638901155288
 40
0.8459365174200796
 40
0.8737472970982537
 40
0.9060643875424851
 40
0.938806917676725
 40
0.9715503596903082
 40
1.0
 40
1.0
 40
1.0
 40
1.0
 10
911.2456098321899
 20
-387.4722628282807
 30
0.0
 10
911.2594463863053
 20
-389.5390033595916
 30
0.0
 10
911.2873952968919
 20
-393.7136805106691
 30
0.0
 10
911.515963877601
 20
-400.4274986908806
 30
0.0
 10
911.887924707392
 20
-407.4778753136389
 30
0.0
 10
912.413853834533
 20
-414.7081192928201
 30
0.0
 10
913.0922267599063
 20
-422.0796330652159
 30
0.0
 10
913.9200738374326
 20
-429.4899638137442
 30
0.0
 10
914.9191022711909
 20
-437.0226132225466
 30
0.0
 10
916.115612839647
 20
-444.7207112761388
 30
0.0
 10
917.5406434820725
 20
-452.5735734980543
 30
0.0
 10
919.2183404202462
 20
-460.4912303149733
 30
0.0
 10
921.1583625367492
 20
-468.3342885000956
 30
0.0
 10
923.4584191750766
 20
-476.28454940866
 30
0.0
 10
926.1983085773487
 20
-484.2815046870031
 30
0.0
 10
929.483940390962
 20
-492.2497517796268
 30
0.0
 10
933.3084838433568
 20
-499.861233396316
 30
0.0
 10
937.305719489855
 20
-506.2803385207652
 30
0.0
 10
941.3215912379112
 20
-511.5669749001505
 30
0.0
 10
945.1944552992948
 20
-515.837249302828
 30
0.0
 10
949.4401848136614
 20
-519.7061125963112
 30
0.0
 10
953.9858950174628
 20
-523.0555460851801
 30
0.0
 10
958.8281645005343
 20
-525.8804512904551
 30
0.0
 10
963.900621819624
 20
-528.1446935921675
 30
0.0
 10
969.2457429925009
 20
-529.8758251321094
 30
0.0
 10
974.678503596917
 20
-531.0224792540374
 30
0.0
 10
980.1597128263676
 20
-531.6313291117472
 30
0.0
 10
985.604022705866
 20
-531.742248924744
 30
0.0
 10
991.0991329088054
 20
-531.38453890654
 30
0.0
 10
996.8772542241055
 20
-530.5296911897949
 30
0.0
 10
1002.915864052869
 20
-529.1096426897155
 30
0.0
 10
1009.109215078715
 20
-527.0485834687529
 30
0.0
 10
1014.884844743983
 20
-524.6127621648263
 30
0.0
 10
1018.428949258853
 20
-522.6329641685991
 30
0.0
 10
1020.076659994118
 20
-521.7125244924122
 30
0.0
  0
SPLINE
  5
C4
330
1F
100
AcDbEntity
  8
0
  6
Continuous
 62
     7
370
    25
100
AcDbSpline
210
0.0
220
0.0
230
1.0
 70
     8
 71
     3
 72
    17
 73
    13
 74
     0
 42
0.000000001
 43
0.00000001
 40
0.0
 40
0.0
 40
0.0
 40
0.0
 40
0.0205208153564149
 40
0.1309166379599897
 40
0.2435761189893643
 40
0.3570756267381369
 40
0.4684620445949414
 40
0.5808182126367
 40
0.6965281142167962
 40
0.8135301737063155
 40
0.906766252897564
 40
1.0
 40
1.0
 40
1.0
 40
1.0
 10
920.126855329393
 20
-348.5801954630255
 30
0.0
 10
919.990042848902
 20
-348.6400041174363
 30
0.0
 10
919.1172203189121
 20
-349.0215653673373
 30
0.0
 10
917.7898659017895
 20
-350.3554082485381
 30
0.0
 10
916.1285517034627
 20
-352.6696612464198
 30
0.0
 10
914.7502029137117
 20
-355.7695300192085
 30
0.0
 10
913.6065193390377
 20
-359.5846289935616
 30
0.0
 10
912.687375143996
 20
-364.1734491087575
 30
0.0
 10
911.9813491427165
 20
-369.6007778750487
 30
0.0
 10
911.5348319478807
 20
-375.4530637986201
 30
0.0
 10
911.2880096254233
 20
-381.4354772578274
 30
0.0
 10
911.2597429787619
 20
-385.4600177491298
 30
0.0
 10
911.2456098321899
 20
-387.4722628282807
 30
0.0
  0
LWPOLYLINE
  5
C5
330
1F
100
AcDbEntity
  8
0
  6
Continuous
 62
     7
370
    25
100
AcDbPolyline
 90
      134
 70
   128
 43
0.0
 10
730.2262738484
 20
-282.972024515
 10
730.1020196002
 20
-276.9704494842
 10
729.7295341153
 20
-271.1257272155
 10
729.1096485545
 20
-265.4508995696
 10
728.2437461248
 20
-259.958629306
 10
727.1337589932
 20
-254.6611718273
 10
725.7821639751
 20
-249.5703478324
 10
724.1919770073
 20
-244.6975169404
 10
722.3667464188
 20
-240.0535523424
 10
720.3105450128
 20
-235.6488165393
 10
718.0279609786
 20
-231.493138219
 10
715.5240876538
 20
-227.5957903248
 10
712.8045121587
 20
-223.9654693638
 10
709.8753029299
 20
-220.6102760017
 10
706.7429961783
 20
-217.5376969867
 10
703.4145813052
 20
-214.7545884442
 10
699.8974853057
 20
-212.2671605774
 10
696.1995561962
 20
-210.0809638107
 10
692.3290455026
 20
-208.2008764038
 10
688.2945898475
 20
-206.631093567
 10
684.1051916792
 20
-205.3751180996
 10
679.7701991832
 20
-204.4357525739
 10
675.2992854227
 20
-203.8150930817
 10
670.7024267546
 20
-203.5145245571
 10
665.9898805681
 20
-203.534717686
 10
661.1721623964
 20
-203.8756274096
 10
656.2600224526
 20
-204.536493025
 10
651.2644216416
 20
-205.5158398826
 10
646.1965071024
 20
-206.8114826766
 10
641.0675873338
 20
-208.4205303213
 10
635.8891069614
 20
-210.3393924023
 10
630.6726211999
 20
-212.563787188
 10
625.4297700687
 20
-215.0887511837
 10
620.1722524187
 20
-217.9086502075
 10
614.9117998277
 20
-221.017191962
 10
609.6601504224
 20
-224.407440075
 10
604.429022686
 20
-228.0718295774
 10
599.2300893101
 20
-232.0021837833
 10
594.0749511479
 20
-236.1897325357
 10
588.9751113285
 20
-240.6251317757
 10
583.9419495885
 20
-245.2984843934
 10
578.98669688
 20
-250.1993623117
 10
574.1204103094
 20
-255.3168297556
 10
569.3539484648
 20
-260.6394676542
 10
564.6979471864
 20
-266.1553991211
 10
560.1627958337
 20
-271.8523159563
 10
555.7586141026
 20
-277.7175061107
 10
551.4952294447
 20
-283.7378820517
 10
547.3821551384
 20
-289.9000099664
 10
543.4285690606
 20
-296.1901397379
 10
539.6432932079
 20
-302.5942356272
 10
536.0347740109
 20
-309.0980075921
 10
532.6110634868
 20
-315.6869431743
 10
529.3798012725
 20
-322.346339882
 10
526.3481975777
 20
-329.0613379973
 10
523.5230170955
 20
-335.8169537336
 10
520.9105639083
 20
-342.5981126706
 10
518.5166674208
 20
-349.3896833911
 10
516.346669352
 20
-356.1765112453
 10
514.4054118161
 20
-362.9434521662
 10
512.6972265179
 20
-369.6754064628
 10
511.2259250866
 20
-376.3573525127
 10
509.994790571
 20
-382.9743802814
 10
509.0065701136
 20
-389.5117245925
 10
508.2634688208
 20
-395.9547980746
 10
507.767144842
 20
-402.2892237115
 10
507.5187056701
 20
-408.5008669226
 10
507.5187056701
 20
-414.575867103
 10
507.767144842
 20
-420.5006685518
 10
508.2634688208
 20
-426.2620507203
 10
509.0065701136
 20
-431.8471577121
 10
509.994790571
 20
-437.2435269695
 10
511.2259250866
 20
-442.4391170826
 10
512.6972265179
 20
-447.4223346583
 10
514.4054118161
 20
-452.1820601896
 10
516.346669352
 20
-456.7076728677
 10
518.5166674208
 20
-460.9890742811
 10
520.9105639083
 20
-465.0167109491
 10
523.5230170955
 20
-468.7815956394
 10
526.3481975777
 20
-472.2753274221
 10
529.3798012725
 20
-475.4901104155
 10
532.6110634868
 20
-478.4187711816
 10
536.0347740109
 20
-481.0547747332
 10
539.643293208
 20
-483.3922391155
 10
543.4285690606
 20
-485.4259485316
 10
547.3821551384
 20
-487.1513649804
 10
551.4952294447
 20
-488.5646383832
 10
555.7586141026
 20
-489.6626151744
 10
560.1627958337
 20
-490.4428453386
 10
564.6979471864
 20
-490.903587877
 10
569.3539484648
 20
-491.0438146929
 10
574.1204103094
 20
-490.8632128855
 10
578.98669688
 20
-490.362185448
 10
583.9419495885
 20
-489.5418503685
 10
588.9751113285
 20
-488.4040381354
 10
594.0749511479
 20
-486.9512876527
 10
599.2300893101
 20
-485.1868405748
 10
604.429022686
 20
-483.1146340729
 10
609.6601504224
 20
-480.7392920502
 10
614.9117998277
 20
-478.0661148235
 10
620.1722524187
 20
-475.1010672964
 10
625.4297700687
 20
-471.8507656495
 10
630.6726211999
 20
-468.3224625765
 10
635.8891069614
 20
-464.5240311013
 10
641.0675873338
 20
-460.4639470098
 10
646.1965071024
 20
-456.1512699372
 10
651.2644216416
 20
-451.5956231524
 10
656.2600224526
 20
-446.8071720847
 10
661.1721623964
 20
-441.7966016409
 10
665.9898805681
 20
-436.5750923628
 10
670.7024267546
 20
-431.1542954795
 10
675.2992854227
 20
-425.5463069083
 10
679.7701991832
 20
-419.7636402647
 10
684.1051916792
 20
-413.8191989391
 10
688.2945898475
 20
-407.7262473045
 10
692.3290455026
 20
-401.4983811185
 10
696.1995561962
 20
-395.1494971857
 10
699.8974853057
 20
-388.6937623488
 10
703.4145813052
 20
-382.1455818766
 10
706.7429961783
 20
-375.5195673201
 10
709.8753029299
 20
-368.8305039088
 10
712.8045121587
 20
-362.0933175588
 10
715.5240876538
 20
-355.3230415671
 10
718.0279609786
 20
-348.5347830668
 10
720.3105450128
 20
-341.743689317
 10
722.3667464188
 20
-334.9649139034
 10
724.1919770073
 20
-328.2135829245
 10
725.7821639751
 20
-321.5047612396
 10
727.1337589932
 20
-314.8534188534
 10
728.2437461248
 20
-308.2743975113
 10
729.1096485545
 20
-301.7823775827
 10
729.7295341153
 20
-295.3918453025
 10
730.1020196002
 20
-289.1170604471
 10
730.2262738484
 20
-282.972024515
  0
LWPOLYLINE
  5
C6
330
1F
100
AcDbEntity
  8
0
  6
Continuous
 62
     7
370
    25
100
AcDbPolyline
 90
       18
 70
   128
 43
0.0
 10
1233.6863020533
 20
-573.6133123239
 10
1233.562047805
 20
-567.6117372931
 10
1233.1895623201
 20
-561.7670150244
 10
1232.5696767593
 20
-556.0921873785
 10
1231.7037743296
 20
-550.5999171149
 10
1230.5937871981
 20
-545.3024596362
 10
1229.2421921799
 20
-540.2116356413
 10
1227.6520052121
 20
-535.3388047493
 10
1225.8267746236
 20
-530.6948401513
 10
1223.7705732176
 20
-526.2901043482
 10
1221.4879891834
 20
-522.1344260279
 10
1218.9841158586
 20
-518.2370781337
 10
1216.2645403636
 20
-514.6067571727
 10
1213.3353311347
 20
-511.2515638106
 10
1210.2030243831
 20
-508.1789847956
 10
1206.8746095101
 20
-505.395876253
 10
1203.3575135106
 20
-502.9084483863
 10
1201.0605842115
 20
-501.5027553049
  0
LWPOLYLINE
  5
C7
330
1F
100
AcDbEntity
  8
0
  6
Continuous
 62
     7
370
    25
100
AcDbPolyline
 90
       51
 70
   128
 43
0.0
 10
1043.5733838213
 20
-774.3081469549
 10
1046.8885972655
 20
-776.0672363404
 10
1050.8421833432
 20
-777.7926527893
 10
1054.9552576496
 20
-779.2059261921
 10
1059.2186423074
 20
-780.3039029833
 10
1063.6228240385
 20
-781.0841331474
 10
1068.1579753912
 20
-781.5448756858
 10
1072.8139766696
 20
-781.6851025018
 10
1077.5804385142
 20
-781.5045006943
 10
1082.4467250849
 20
-781.0034732568
 10
1087.4019777933
 20
-780.1831381774
 10
1092.4351395333
 20
-779.0453259443
 10
1097.5349793527
 20
-777.5925754616
 10
1102.6901175149
 20
-775.8281283836
 10
1107.8890508908
 20
-773.7559218818
 10
1113.1201786272
 20
-771.3805798591
 10
1118.3718280325
 20
-768.7074026324
 10
1123.6322806235
 20
-765.7423551053
 10
1128.8897982735
 20
-762.4920534583
 10
1134.1326494047
 20
-758.9637503853
 10
1139.3491351662
 20
-755.1653189102
 10
1144.5276155386
 20
-751.1052348187
 10
1149.6565353072
 20
-746.7925577461
 10
1154.7244498465
 20
-742.2369109613
 10
1159.7200506574
 20
-737.4484598936
 10
1164.6321906012
 20
-732.4378894498
 10
1169.4499087729
 20
-727.2163801717
 10
1174.1624549594
 20
-721.7955832884
 10
1178.7593136275
 20
-716.1875947172
 10
1183.230227388
 20
-710.4049280736
 10
1187.5652198841
 20
-704.460486748
 10
1191.7546180523
 20
-698.3675351134
 10
1195.7890737074
 20
-692.1396689273
 10
1199.6595844011
 20
-685.7907849946
 10
1203.3575135106
 20
-679.3350501577
 10
1206.8746095101
 20
-672.7868696855
 10
1210.2030243831
 20
-666.160855129
 10
1213.3353311347
 20
-659.4717917177
 10
1216.2645403636
 20
-652.7346053677
 10
1218.9841158586
 20
-645.964329376
 10
1221.4879891834
 20
-639.1760708757
 10
1223.7705732176
 20
-632.3849771259
 10
1225.8267746236
 20
-625.6062017123
 10
1227.6520052121
 20
-618.8548707333
 10
1229.2421921799
 20
-612.1460490485
 10
1230.5937871981
 20
-605.4947066622
 10
1231.7037743296
 20
-598.9156853202
 10
1232.5696767593
 20
-592.4236653916
 10
1233.1895623201
 20
-586.0331331114
 10
1233.562047805
 20
-579.758348256
 10
1233.6863020533
 20
-573.6133123239
  0
LWPOLYLINE
  5
C8
330
1F
100
AcDbEntity
  8
0
  6
Continuous
 62
     7
370
    25
100
AcDbPolyline
 90
      121
 70
   128
 43
0.0
 10
710.0030199065
 20
-294.646660514
 10
709.8781073934
 20
-289.2103011154
 10
709.5037122306
 20
-283.9330633177
 10
708.8808606093
 20
-278.8294116631
 10
708.0112597224
 20
-273.913334906
 10
706.8972930855
 20
-269.1983076709
 10
705.5420140037
 20
-264.6972535199
 10
703.9491372029
 20
-260.4225095296
 10
702.1230286475
 20
-256.3857924759
 10
700.0686935742
 20
-252.5981667199
 10
697.7917627727
 20
-249.0700138804
 10
695.2984771521
 20
-245.8110043792
 10
692.5956706348
 20
-242.8300709347
 10
689.6907514256
 20
-240.1353840782
 10
686.5916817063
 20
-237.7343297593
 10
683.3069558116
 20
-235.6334891008
 10
679.8455769466
 20
-233.838620361
 10
676.2170325104
 20
-232.3546431504
 10
672.4312680911
 20
-231.1856249473
 10
668.4986602056
 20
-230.3347699493
 10
664.429987859
 20
-229.8044102909
 10
660.2364029993
 20
-229.595999651
 10
655.9293999511
 20
-229.7101092688
 10
651.5207839104
 20
-230.1464263776
 10
647.0226385873
 20
-230.9037550626
 10
642.4472930855
 20
-231.9800195386
 10
637.8072881089
 20
-233.3722698393
 10
633.1153415888
 20
-235.0766899036
 10
628.3843138243
 20
-237.0886080344
 10
623.6271722337
 20
-239.4025097041
 10
618.8569558116
 20
-242.0120526689
 10
614.0867393894
 20
-244.9100843531
 10
609.3295977988
 20
-248.0886614532
 10
604.5985700343
 20
-251.5390717103
 10
599.9066235142
 20
-255.2518577897
 10
595.2666185376
 20
-259.2168432029
 10
590.6912730358
 20
-263.4231602005
 10
586.1931277127
 20
-267.8592795598
 10
581.784511672
 20
-272.5130421863
 10
577.4775086238
 20
-277.3716924398
 10
573.2839237641
 20
-282.4219130979
 10
569.2152514175
 20
-287.6498618567
 10
565.282643532
 20
-293.0412092721
 10
561.4968791127
 20
-298.5811780355
 10
557.8683346765
 20
-304.2545834777
 10
554.4069558116
 20
-310.0458751886
 10
551.1222299168
 20
-315.9391796404
 10
548.0231601975
 20
-321.918343695
 10
545.1182409884
 20
-327.9669788795
 10
542.4154344711
 20
-334.0685063052
 10
539.9221488504
 20
-340.2062021095
 10
537.6452180489
 20
-346.3632432949
 10
535.5908829756
 20
-352.5227538396
 10
533.7647744203
 20
-358.6678509531
 10
532.1718976194
 20
-364.7816913514
 10
530.8166185376
 20
-370.8475174231
 10
529.7026519008
 20
-376.8487031604
 10
528.8330510138
 20
-382.7687997305
 10
528.2101993925
 20
-388.59158056
 10
527.8358042297
 20
-394.3010858115
 10
527.7108917166
 20
-399.881666128
 10
527.8358042297
 20
-405.3180255267
 10
528.2101993925
 20
-410.5952633243
 10
528.8330510138
 20
-415.6989149789
 10
529.7026519008
 20
-420.6149917361
 10
530.8166185376
 20
-425.3300189711
 10
532.1718976194
 20
-429.8310731221
 10
533.7647744203
 20
-434.1058171125
 10
535.5908829756
 20
-438.1425341661
 10
537.6452180489
 20
-441.9301599221
 10
539.9221488504
 20
-445.4583127616
 10
542.4154344711
 20
-448.7173222628
 10
545.1182409884
 20
-451.6982557074
 10
548.0231601975
 20
-454.3929425638
 10
551.1222299168
 20
-456.7939968827
 10
554.4069558116
 20
-458.8948375412
 10
557.8683346765
 20
-460.689706281
 10
561.4968791127
 20
-462.1736834916
 10
565.282643532
 20
-463.3427016948
 10
569.2152514175
 20
-464.1935566927
 10
573.2839237641
 20
-464.7239163511
 10
577.4775086238
 20
-464.932326991
 10
581.784511672
 20
-464.8182173733
 10
586.1931277127
 20
-464.3819002644
 10
590.6912730358
 20
-463.6245715794
 10
595.2666185376
 20
-462.5483071035
 10
599.9066235142
 20
-461.1560568027
 10
604.5985700343
 20
-459.4516367385
 10
609.3295977988
 20
-457.4397186076
 10
614.0867393894
 20
-455.1258169379
 10
618.8569558116
 20
-452.5162739731
 10
623.6271722337
 20
-449.6182422889
 10
628.3843138243
 20
-446.4396651888
 10
633.1153415888
 20
-442.9892549317
 10
637.8072881089
 20
-439.2764688523
 10
642.4472930855
 20
-435.3114834391
 10
647.0226385873
 20
-431.1051664416
 10
651.5207839104
 20
-426.6690470822
 10
655.9293999511
 20
-422.0152844558
 10
660.2364029993
 20
-417.1566342022
 10
664.429987859
 20
-412.1064135442
 10
668.4986602056
 20
-406.8784647853
 10
672.4312680911
 20
-401.48711737
 10
676.2170325104
 20
-395.9471486065
 10
679.8455769466
 20
-390.2737431644
 10
683.3069558116
 20
-384.4824514534
 10
686.5916817063
 20
-378.5891470016
 10
689.6907514256
 20
-372.609982947
 10
692.5956706348
 20
-366.5613477625
 10
695.2984771521
 20
-360.4598203369
 10
697.7917627727
 20
-354.3221245325
 10
700.0686935742
 20
-348.1650833471
 10
702.1230286475
 20
-342.0055728025
 10
703.9491372029
 20
-335.860475689
 10
705.5420140037
 20
-329.7466352906
 10
706.8972930855
 20
-323.6808092189
 10
708.0112597224
 20
-317.6796234816
 10
708.8808606093
 20
-311.7595269115
 10
709.5037122306
 20
-305.936746082
 10
709.8781073934
 20
-300.2272408305
 10
710.0030199065
 20
-294.646660514
  0
LWPOLYLINE
  5
C9
330
1F
100
AcDbEntity
  8
0
  6
Continuous
 62
     7
370
    25
100
AcDbPolyline
 90
       97
 70
   128
 43
0.0
 10
1152.5811542512
 20
-396.5752132751
 10
1152.4573115136
 20
-392.1352466615
 10
1152.0863136145
 20
-387.5713068853
 10
1151.4697492238
 20
-382.9029374374
 10
1150.6102585649
 20
-378.1501289923
 10
1149.5115221087
 20
-373.3332338055
 10
1148.1782448135
 20
-368.4728785616
 10
1146.6161359773
 20
-363.5898760482
 10
1144.83188479
 20
-358.7051360314
 10
1142.8331316891
 20
-353.8395757181
 10
1140.6284356421
 20
-349.0140301844
 10
1138.2272374961
 20
-344.2491631572
 10
1135.6398195501
 20
-339.5653785285
 10
1132.877261525
 20
-334.9827329833
 10
1129.9513931185
 20
-330.5208501132
 10
1126.8747433481
 20
-326.1988363858
 10
1123.6604869006
 20
-322.0351993274
 10
1120.3223877155
 20
-318.047768271
 10
1116.8747400461
 20
-314.2536180086
 10
1113.3323072488
 20
-310.668995674
 10
1109.7102585649
 20
-307.3092511706
 10
1106.0241041628
 20
-304.18877144
 10
1102.2896287216
 20
-301.3209188555
 10
1098.5228238384
 20
-298.7179740021
 10
1094.7398195501
 20
-296.3910830893
 10
1090.9568152618
 20
-294.3502102213
 10
1087.1900103786
 20
-292.6040947289
 10
1083.4555349374
 20
-291.1602137468
 10
1079.7693805353
 20
-290.0247501951
 10
1076.1473318514
 20
-289.2025663029
 10
1072.6048990541
 20
-288.6971827879
 10
1069.1572513846
 20
-288.51076378
 10
1065.8191521996
 20
-288.6441075538
 10
1062.6048957521
 20
-289.096643111
 10
1059.5282459817
 20
-289.8664326248
 10
1056.6023775752
 20
-290.9501797382
 10
1053.8398195501
 20
-292.3432436799
 10
1051.2524016041
 20
-294.0396591361
 10
1048.8512034581
 20
-296.0321617954
 10
1046.6465074111
 20
-298.3122194555
 10
1044.6477543102
 20
-300.8700685594
 10
1042.8635031228
 20
-303.6947560047
 10
1041.3013942867
 20
-306.7741860461
 10
1039.9681169915
 20
-310.0951720912
 10
1038.8693805353
 20
-313.6434931681
 10
1038.0098898764
 20
-317.4039548212
 10
1037.3933254857
 20
-321.3604541763
 10
1037.0223275866
 20
-325.4960488957
 10
1036.898484849
 20
-329.793029728
 10
1037.0223275866
 20
-334.2329963416
 10
1037.3933254857
 20
-338.7969361178
 10
1038.0098898764
 20
-343.4653055657
 10
1038.8693805353
 20
-348.2181140109
 10
1039.9681169915
 20
-353.0350091977
 10
1041.3013942867
 20
-357.8953644415
 10
1042.8635031229
 20
-362.7783669549
 10
1044.6477543102
 20
-367.6631069717
 10
1046.6465074111
 20
-372.528667285
 10
1048.8512034581
 20
-377.3542128187
 10
1051.2524016041
 20
-382.119079846
 10
1053.8398195501
 20
-386.8028644746
 10
1056.6023775752
 20
-391.3855100198
 10
1059.5282459817
 20
-395.8473928899
 10
1062.6048957521
 20
-400.1694066173
 10
1065.8191521996
 20
-404.3330436757
 10
1069.1572513846
 20
-408.3204747321
 10
1072.6048990541
 20
-412.1146249946
 10
1076.1473318514
 20
-415.6992473291
 10
1079.7693805353
 20
-419.0589918325
 10
1083.4555349374
 20
-422.1794715631
 10
1087.1900103786
 20
-425.0473241477
 10
1090.9568152618
 20
-427.650269001
 10
1094.7398195501
 20
-429.9771599138
 10
1098.5228238384
 20
-432.0180327818
 10
1102.2896287216
 20
-433.7641482742
 10
1106.0241041628
 20
-435.2080292563
 10
1109.7102585649
 20
-436.343492808
 10
1113.3323072488
 20
-437.1656767002
 10
1116.8747400461
 20
-437.6710602152
 10
1120.3223877155
 20
-437.8574792232
 10
1123.6604869006
 20
-437.7241354493
 10
1126.8747433481
 20
-437.2715998921
 10
1129.9513931185
 20
-436.5018103783
 10
1132.877261525
 20
-435.4180632649
 10
1135.6398195501
 20
-434.0249993232
 10
1138.2272374961
 20
-432.328583867
 10
1140.6284356421
 20
-430.3360812077
 10
1142.8331316891
 20
-428.0560235476
 10
1144.83188479
 20
-425.4981744437
 10
1146.6161359773
 20
-422.6734869984
 10
1148.1782448135
 20
-419.594056957
 10
1149.5115221087
 20
-416.2730709119
 10
1150.6102585649
 20
-412.724749835
 10
1151.4697492238
 20
-408.9642881819
 10
1152.0863136145
 20
-405.0077888269
 10
1152.4573115136
 20
-400.8721941074
 10
1152.5811542512
 20
-396.5752132751
  0
LWPOLYLINE
  5
CA
330
1F
100
AcDbEntity
  8
0
  6
Continuous
 62
     7
370
    25
100
AcDbPolyline
 90
      107
 70
   128
 43
0.0
 10
1165.4504976688
 20
-404.0045270927
 10
1165.3263107509
 20
-399.0955964713
 10
1164.9541862082
 20
-394.0605254843
 10
1164.3354311419
 20
-388.9170000022
 10
1163.4722189516
 20
-383.6830868459
 10
1162.3675817016
 20
-378.3771703262
 10
1161.0253994707
 20
-373.0178876684
 10
1159.4503867227
 20
-367.6240635483
 10
1157.6480757474
 20
-362.2146439698
 10
1155.6247972279
 20
-356.8086297165
 10
1153.3876580038
 20
-351.4250096106
 10
1150.9445161081
 20
-346.0826938141
 10
1148.3039531659
 20
-340.800447406
 10
1145.4752442508
 20
-335.5968244696
 10
1142.468325306
 20
-330.4901029201
 10
1139.2937582441
 20
-325.4982203034
 10
1135.9626938475
 20
-320.638710789
 10
1132.4868326016
 20
-315.9286435814
 10
1128.8783835956
 20
-311.3845629635
 10
1125.1500216383
 20
-307.0224301842
 10
1121.3148427371
 20
-302.8575673939
 10
1117.3863180977
 20
-298.9046038252
 10
1113.3782468062
 20
-295.1774244066
 10
1109.3047073592
 20
-291.6891209918
 10
1105.1800082126
 20
-288.4519463739
 10
1101.0186375225
 20
-285.4772712467
 10
1096.8352122553
 20
-282.7755442651
 10
1092.6444268449
 20
-280.3562553436
 10
1088.4610015777
 20
-278.2279023229
 10
1084.2996308876
 20
-276.3979611205
 10
1080.174931741
 20
-274.8728594716
 10
1076.101392294
 20
-273.6579543515
 10
1072.0933210025
 20
-272.7575131586
 10
1068.1647963631
 20
-272.1746987255
 10
1064.3296174619
 20
-271.9115582091
 10
1060.6012555046
 20
-271.9690159001
 10
1056.9928064986
 20
-272.3468699763
 10
1053.5169452527
 20
-273.0437932115
 10
1050.1858808561
 20
-274.0573376373
 10
1047.0113137942
 20
-275.383943142
 10
1044.0043948494
 20
-277.0189499753
 10
1041.1756859343
 20
-278.9566151162
 10
1038.5351229921
 20
-281.1901324452
 10
1036.0919810964
 20
-283.7116566512
 10
1033.8548418723
 20
-286.5123307885
 10
1031.8315633528
 20
-289.5823173869
 10
1030.0292523775
 20
-292.9108330066
 10
1028.4542396295
 20
-296.4861861152
 10
1027.1120573986
 20
-300.2958181544
 10
1026.0074201486
 20
-304.3263476527
 10
1025.1442079583
 20
-308.5636172282
 10
1024.525452892
 20
-312.9927433171
 10
1024.1533283493
 20
-317.5981684524
 10
1024.0291414314
 20
-322.3637159104
 10
1024.1533283493
 20
-327.2726465318
 10
1024.525452892
 20
-332.3077175188
 10
1025.1442079583
 20
-337.4512430009
 10
1026.0074201486
 20
-342.6851561572
 10
1027.1120573986
 20
-347.9910726769
 10
1028.4542396295
 20
-353.3503553347
 10
1030.0292523775
 20
-358.7441794548
 10
1031.8315633528
 20
-364.1535990333
 10
1033.8548418723
 20
-369.5596132867
 10
1036.0919810964
 20
-374.9432333926
 10
1038.5351229921
 20
-380.2855491891
 10
1041.1756859343
 20
-385.5677955971
 10
1044.0043948494
 20
-390.7714185335
 10
1047.0113137942
 20
-395.878140083
 10
1050.1858808561
 20
-400.8700226998
 10
1053.5169452527
 20
-405.7295322141
 10
1056.9928064986
 20
-410.4395994217
 10
1060.6012555046
 20
-414.9836800396
 10
1064.3296174619
 20
-419.3458128189
 10
1068.1647963631
 20
-423.5106756092
 10
1072.0933210025
 20
-427.4636391779
 10
1076.101392294
 20
-431.1908185965
 10
1080.174931741
 20
-434.6791220113
 10
1084.2996308876
 20
-437.9162966292
 10
1088.4610015777
 20
-440.8909717564
 10
1092.6444268449
 20
-443.592698738
 10
1096.8352122553
 20
-446.0119876595
 10
1101.0186375225
 20
-448.1403406802
 10
1105.1800082126
 20
-449.9702818826
 10
1109.3047073592
 20
-451.4953835315
 10
1113.3782468062
 20
-452.7102886516
 10
1117.3863180977
 20
-453.6107298445
 10
1121.3148427371
 20
-454.1935442776
 10
1125.1500216383
 20
-454.456684794
 10
1128.8783835956
 20
-454.399227103
 10
1132.4868326016
 20
-454.0213730268
 10
1135.9626938475
 20
-453.3244497916
 10
1139.2937582441
 20
-452.3109053658
 10
1142.468325306
 20
-450.9842998612
 10
1145.4752442508
 20
-449.3492930278
 10
1148.3039531659
 20
-447.4116278869
 10
1150.9445161081
 20
-445.1781105579
 10
1153.3876580038
 20
-442.6565863519
 10
1155.6247972279
 20
-439.8559122147
 10
1157.6480757474
 20
-436.7859256162
 10
1159.4503867227
 20
-433.4574099965
 10
1161.0253994707
 20
-429.8820568879
 10
1162.3675817016
 20
-426.0724248487
 10
1163.4722189516
 20
-422.0418953505
 10
1164.3354311419
 20
-417.8046257749
 10
1164.9541862082
 20
-413.375499686
 10
1165.3263107509
 20
-408.7700745507
 10
1165.4504976688
 20
-404.0045270927
  0
ENDSEC
  0
SECTION
  2
OBJECTS
  0
DICTIONARY
  5
C
330
0
100
AcDbDictionary
281
     1
  3
ACAD_GROUP
350
D
  3
ACAD_LAYOUT
350
1A
  3
ACAD_MLINESTYLE
350
17
  3
ACAD_PLOTSETTINGS
350
19
  3
ACAD_PLOTSTYLENAME
350
E
  3
ACAD_SCALELIST
350
47
  0
DICTIONARY
  5
D
102
{ACAD_REACTORS
330
C
102
}
330
C
100
AcDbDictionary
281
     1
  0
DICTIONARY
  5
1A
102
{ACAD_REACTORS
330
C
102
}
330
C
100
AcDbDictionary
281
     1
  3
Layout1
350
1E
  3
Layout2
350
26
  3
Model
350
22
  0
DICTIONARY
  5
17
102
{ACAD_REACTORS
330
C
102
}
330
C
100
AcDbDictionary
281
     1
  3
Standard
350
18
  0
DICTIONARY
  5
19
102
{ACAD_REACTORS
330
C
102
}
330
C
100
AcDbDictionary
281
     1
  0
ACDBDICTIONARYWDFLT
  5
E
102
{ACAD_REACTORS
330
C
102
}
330
C
100
AcDbDictionary
281
     1
  3
Normal
350
F
100
AcDbDictionaryWithDefault
340
F
  0
DICTIONARY
  5
47
102
{ACAD_REACTORS
330
C
102
}
330
C
100
AcDbDictionary
281
     1
  3
A0
350
48
  3
A1
350
49
  3
A2
350
4A
  3
A3
350
4B
  3
A4
350
4C
  3
A5
350
4D
  3
A6
350
4E
  3
A7
350
4F
  3
A8
350
50
  3
A9
350
51
  3
B0
350
52
  3
B1
350
53
  3
B2
350
54
  3
B3
350
55
  3
B4
350
56
  3
B5
350
57
  3
B6
350
58
  3
B7
350
59
  3
B8
350
5A
  3
B9
350
5B
  3
C0
350
5C
  3
C1
350
5D
  3
C2
350
5E
  3
C3
350
5F
  3
C4
350
60
  3
C5
350
61
  3
C6
350
62
  3
C7
350
63
  3
C8
350
64
  3
C9
350
65
  3
D0
350
66
  3
D1
350
67
  3
D2
350
68
  0
LAYOUT
  5
1E
102
{ACAD_REACTORS
330
1A
102
}
330
1A
100
AcDbPlotSettings
  1

  2
none_device
  4

  6

 40
0.0
 41
0.0
 42
0.0
 43
0.0
 44
0.0
 45
0.0
 46
0.0
 47
0.0
 48
0.0
 49
0.0
140
0.0
141
0.0
142
1.0
143
1.0
 70
   688
 72
     1
 73
     0
 74
     5
  7

 75
    16
147
1.0
148
0.0
149
0.0
100
AcDbLayout
  1
Layout1
 70
     1
 71
     1
 10
0.0
 20
0.0
 11
420.0
 21
297.0
 12
0.0
 22
0.0
 32
0.0
 14
1.0000000000E+20
 24
1.0000000000E+20
 34
1.0000000000E+20
 15
-1.0000000000E+20
 25
-1.0000000000E+20
 35
-1.0000000000E+20
146
0.0
 13
0.0
 23
0.0
 33
0.0
 16
1.0
 26
0.0
 36
0.0
 17
0.0
 27
1.0
 37
0.0
 76
     0
330
1B
  0
LAYOUT
  5
26
102
{ACAD_REACTORS
330
1A
102
}
330
1A
100
AcDbPlotSettings
  1

  2
none_device
  4

  6

 40
0.0
 41
0.0
 42
0.0
 43
0.0
 44
0.0
 45
0.0
 46
0.0
 47
0.0
 48
0.0
 49
0.0
140
0.0
141
0.0
142
1.0
143
1.0
 70
   688
 72
     1
 73
     0
 74
     5
  7

 75
    16
147
1.0
148
0.0
149
0.0
100
AcDbLayout
  1
Layout2
 70
     1
 71
     2
 10
0.0
 20
0.0
 11
0.0
 21
0.0
 12
0.0
 22
0.0
 32
0.0
 14
0.0
 24
0.0
 34
0.0
 15
0.0
 25
0.0
 35
0.0
146
0.0
 13
0.0
 23
0.0
 33
0.0
 16
1.0
 26
0.0
 36
0.0
 17
0.0
 27
1.0
 37
0.0
 76
     0
330
23
  0
LAYOUT
  5
22
102
{ACAD_REACTORS
330
1A
102
}
330
1A
100
AcDbPlotSettings
  1

  2
none_device
  4
Letter_(8.50_x_11.00_Inches)
  6

 40
6.35
 41
6.35
 42
6.35000508
 43
6.35000508
 44
215.9
 45
279.4
 46
0.0
 47
0.0
 48
0.0
 49
0.0
140
0.0
141
0.0
142
1.0
143
1.0
 70
  1712
 72
     1
 73
     0
 74
     0
  7

 75
     0
147
1.0
148
0.0
149
0.0
100
AcDbLayout
  1
Model
 70
     1
 71
     0
 10
0.0
 20
0.0
 11
279.4
 21
215.9
 12
0.0
 22
0.0
 32
0.0
 14
0.0
 24
0.0
 34
0.0
 15
279.4
 25
215.9
 35
0.0
146
0.0
 13
0.0
 23
0.0
 33
0.0
 16
1.0
 26
0.0
 36
0.0
 17
0.0
 27
1.0
 37
0.0
 76
     0
330
1F
331
29
  0
MLINESTYLE
  5
18
102
{ACAD_REACTORS
330
17
102
}
330
17
100
AcDbMlineStyle
  2
Standard
 70
     0
  3

 62
   256
 51
90.0
 52
90.0
 71
     2
 49
0.5
 62
   256
  6
BYLAYER
 49
-0.5
 62
   256
  6
BYLAYER
  0
ACDBPLACEHOLDER
  5
F
102
{ACAD_REACTORS
330
E
102
}
330
E
  0
SCALE
  5
48
102
{ACAD_REACTORS
330
47
102
}
330
47
100
AcDbScale
 70
     0
300
1:1
140
1.0
141
1.0
290
     1
  0
SCALE
  5
49
102
{ACAD_REACTORS
330
47
102
}
330
47
100
AcDbScale
 70
     0
300
1:2
140
1.0
141
2.0
290
     0
  0
SCALE
  5
4A
102
{ACAD_REACTORS
330
47
102
}
330
47
100
AcDbScale
 70
     0
300
1:4
140
1.0
141
4.0
290
     0
  0
SCALE
  5
4B
102
{ACAD_REACTORS
330
47
102
}
330
47
100
AcDbScale
 70
     0
300
1:5
140
1.0
141
5.0
290
     0
  0
SCALE
  5
4C
102
{ACAD_REACTORS
330
47
102
}
330
47
100
AcDbScale
 70
     0
300
1:8
140
1.0
141
8.0
290
     0
  0
SCALE
  5
4D
102
{ACAD_REACTORS
330
47
102
}
330
47
100
AcDbScale
 70
     0
300
1:10
140
1.0
141
10.0
290
     0
  0
SCALE
  5
4E
102
{ACAD_REACTORS
330
47
102
}
330
47
100
AcDbScale
 70
     0
300
1:16
140
1.0
141
16.0
290
     0
  0
SCALE
  5
4F
102
{ACAD_REACTORS
330
47
102
}
330
47
100
AcDbScale
 70
     0
300
1:20
140
1.0
141
20.0
290
     0
  0
SCALE
  5
50
102
{ACAD_REACTORS
330
47
102
}
330
47
100
AcDbScale
 70
     0
300
1:30
140
1.0
141
30.0
290
     0
  0
SCALE
  5
51
102
{ACAD_REACTORS
330
47
102
}
330
47
100
AcDbScale
 70
     0
300
1:40
140
1.0
141
40.0
290
     0
  0
SCALE
  5
52
102
{ACAD_REACTORS
330
47
102
}
330
47
100
AcDbScale
 70
     0
300
1:50
140
1.0
141
50.0
290
     0
  0
SCALE
  5
53
102
{ACAD_REACTORS
330
47
102
}
330
47
100
AcDbScale
 70
     0
300
1:100
140
1.0
141
100.0
290
     0
  0
SCALE
  5
54
102
{ACAD_REACTORS
330
47
102
}
330
47
100
AcDbScale
 70
     0
300
2:1
140
2.0
141
1.0
290
     0
  0
SCALE
  5
55
102
{ACAD_REACTORS
330
47
102
}
330
47
100
AcDbScale
 70
     0
300
4:1
140
4.0
141
1.0
290
     0
  0
SCALE
  5
56
102
{ACAD_REACTORS
330
47
102
}
330
47
100
AcDbScale
 70
     0
300
8:1
140
8.0
141
1.0
290
     0
  0
SCALE
  5
57
102
{ACAD_REACTORS
330
47
102
}
330
47
100
AcDbScale
 70
     0
300
10:1
140
10.0
141
1.0
290
     0
  0
SCALE
  5
58
102
{ACAD_REACTORS
330
47
102
}
330
47
100
AcDbScale
 70
     0
300
100:1
140
100.0
141
1.0
290
     0
  0
SCALE
  5
59
102
{ACAD_REACTORS
330
47
102
}
330
47
100
AcDbScale
 70
     0
300
1/128" = 1'-0"
140
0.0078125
141
12.0
290
     0
  0
SCALE
  5
5A
102
{ACAD_REACTORS
330
47
102
}
330
47
100
AcDbScale
 70
     0
300
1/64" = 1'-0"
140
0.015625
141
12.0
290
     0
  0
SCALE
  5
5B
102
{ACAD_REACTORS
330
47
102
}
330
47
100
AcDbScale
 70
     0
300
1/32" = 1'-0"
140
0.03125
141
12.0
290
     0
  0
SCALE
  5
5C
102
{ACAD_REACTORS
330
47
102
}
330
47
100
AcDbScale
 70
     0
300
1/16" = 1'-0"
140
0.0625
141
12.0
290
     0
  0
SCALE
  5
5D
102
{ACAD_REACTORS
330
47
102
}
330
47
100
AcDbScale
 70
     0
300
3/32" = 1'-0"
140
0.09375
141
12.0
290
     0
  0
SCALE
  5
5E
102
{ACAD_REACTORS
330
47
102
}
330
47
100
AcDbScale
 70
     0
300
1/8" = 1'-0"
140
0.125
141
12.0
290
     0
  0
SCALE
  5
5F
102
{ACAD_REACTORS
330
47
102
}
330
47
100
AcDbScale
 70
     0
300
3/16" = 1'-0"
140
0.1875
141
12.0
290
     0
  0
SCALE
  5
60
102
{ACAD_REACTORS
330
47
102
}
330
47
100
AcDbScale
 70
     0
300
1/4" = 1'-0"
140
0.25
141
12.0
290
     0
  0
SCALE
  5
61
102
{ACAD_REACTORS
330
47
102
}
330
47
100
AcDbScale
 70
     0
300
3/8" = 1'-0"
140
0.375
141
12.0
290
     0
  0
SCALE
  5
62
102
{ACAD_REACTORS
330
47
102
}
330
47
100
AcDbScale
 70
     0
300
1/2" = 1'-0"
140
0.5
141
12.0
290
     0
  0
SCALE
  5
63
102
{ACAD_REACTORS
330
47
102
}
330
47
100
AcDbScale
 70
     0
300
3/4" = 1'-0"
140
0.75
141
12.0
290
     0
  0
SCALE
  5
64
102
{ACAD_REACTORS
330
47
102
}
330
47
100
AcDbScale
 70
     0
300
1" = 1'-0"
140
1.0
141
12.0
290
     0
  0
SCALE
  5
65
102
{ACAD_REACTORS
330
47
102
}
330
47
100
AcDbScale
 70
     0
300
1-1/2" = 1'-0"
140
1.5
141
12.0
290
     0
  0
SCALE
  5
66
102
{ACAD_REACTORS
330
47
102
}
330
47
100
AcDbScale
 70
     0
300
3" = 1'-0"
140
3.0
141
12.0
290
     0
  0
SCALE
  5
67
102
{ACAD_REACTORS
330
47
102
}
330
47
100
AcDbScale
 70
     0
300
6" = 1'-0"
140
6.0
141
12.0
290
     0
  0
SCALE
  5
68
102
{ACAD_REACTORS
330
47
102
}
330
47
100
AcDbScale
 70
     0
300
1'-0" = 1'-0"
140
12.0
141
12.0
290
     0
  0
ENDSEC
  0
EOF
